  0
SECTION
  2
HEADER
  9
$ACADVER
  1
AC1015
  9
$ACADMAINTVER
 70
     6
  9
$DWGCODEPAGE
  3
ANSI_1254
  9
$INSBASE
 10
0.0
 20
0.0
 30
0.0
  9
$EXTMIN
 10
0.0
 20
0.0
 30
0.0
  9
$EXTMAX
 10
279.4
 20
215.9
 30
0.0
  9
$LIMMIN
 10
0.0
 20
0.0
  9
$LIMMAX
 10
279.4
 20
215.9
  9
$ORTHOMODE
 70
     0
  9
$REGENMODE
 70
     1
  9
$FILLMODE
 70
     1
  9
$QTEXTMODE
 70
     0
  9
$MIRRTEXT
 70
     1
  9
$LTSCALE
 40
1.0
  9
$ATTMODE
 70
     1
  9
$TEXTSIZE
 40
3.5
  9
$TRACEWID
 40
1.0
  9
$TEXTSTYLE
  7
Standard
  9
$CLAYER
  8
0
  9
$CELTYPE
  6
ByLayer
  9
$CECOLOR
 62
   256
  9
$CELTSCALE
 40
1.0
  9
$DISPSILH
 70
     0
  9
$DIMSCALE
 40
1.0
  9
$DIMASZ
 40
3.5
  9
$DIMEXO
 40
1.0
  9
$DIMDLI
 40
3.75
  9
$DIMRND
 40
0.0
  9
$DIMDLE
 40
0.0
  9
$DIMEXE
 40
1.0
  9
$DIMTP
 40
0.0
  9
$DIMTM
 40
0.0
  9
$DIMTXT
 40
3.5
  9
$DIMCEN
 40
2.5
  9
$DIMTSZ
 40
0.0
  9
$DIMTOL
 70
     0
  9
$DIMLIM
 70
     0
  9
$DIMTIH
 70
     1
  9
$DIMTOH
 70
     1
  9
$DIMSE1
 70
     0
  9
$DIMSE2
 70
     0
  9
$DIMTAD
 70
     1
  9
$DIMZIN
 70
     0
  9
$DIMBLK
  1

  9
$DIMASO
 70
     1
  9
$DIMSHO
 70
     1
  9
$DIMPOST
  1

  9
$DIMAPOST
  1

  9
$DIMALT
 70
     0
  9
$DIMALTD
 70
     3
  9
$DIMALTF
 40
0.0393700787
  9
$DIMLFAC
 40
1.0
  9
$DIMTOFL
 70
     1
  9
$DIMTVP
 40
0.0
  9
$DIMTIX
 70
     0
  9
$DIMSOXD
 70
     0
  9
$DIMSAH
 70
     0
  9
$DIMBLK1
  1

  9
$DIMBLK2
  1

  9
$DIMSTYLE
  2
ISO-25
  9
$DIMCLRD
 70
     0
  9
$DIMCLRE
 70
     0
  9
$DIMCLRT
 70
     0
  9
$DIMTFAC
 40
1.0
  9
$DIMGAP
 40
1.524
  9
$DIMJUST
 70
     0
  9
$DIMSD1
 70
     0
  9
$DIMSD2
 70
     0
  9
$DIMTOLJ
 70
     0
  9
$DIMTZIN
 70
     0
  9
$DIMALTZ
 70
     0
  9
$DIMALTTZ
 70
     0
  9
$DIMUPT
 70
     0
  9
$DIMDEC
 70
     2
  9
$DIMTDEC
 70
     2
  9
$DIMALTU
 70
     2
  9
$DIMALTTD
 70
     3
  9
$DIMTXSTY
  7
Standard
  9
$DIMAUNIT
 70
     0
  9
$DIMADEC
 70
     2
  9
$DIMALTRND
 40
0.0
  9
$DIMAZIN
 70
     0
  9
$DIMDSEP
 70
    44
  9
$DIMATFIT
 70
     3
  9
$DIMFRAC
 70
     0
  9
$DIMLDRBLK
  1

  9
$DIMLUNIT
 70
     2
  9
$DIMLWD
 70
    -2
  9
$DIMLWE
 70
    -2
  9
$DIMTMOVE
 70
     0
  9
$LUNITS
 70
     2
  9
$LUPREC
 70
     2
  9
$SKETCHINC
 40
1.0
  9
$FILLETRAD
 40
10.0
  9
$AUNITS
 70
     0
  9
$AUPREC
 70
     2
  9
$MENU
  1
.
  9
$ELEVATION
 40
0.0
  9
$PELEVATION
 40
0.0
  9
$THICKNESS
 40
0.0
  9
$LIMCHECK
 70
     0
  9
$CHAMFERA
 40
0.0
  9
$CHAMFERB
 40
0.0
  9
$CHAMFERC
 40
0.0
  9
$CHAMFERD
 40
0.0
  9
$SKPOLY
 70
     0
  9
$TDCREATE
 40
2458985.69037919
  9
$TDUCREATE
 40
2458985.56537919
  9
$TDUPDATE
 40
2458985.690379514
  9
$TDUUPDATE
 40
2458985.565379514
  9
$TDINDWG
 40
0.0000000116
  9
$TDUSRTIMER
 40
0.0000000116
  9
$USRTIMER
 70
     1
  9
$ANGBASE
 50
0.0
  9
$ANGDIR
 70
     0
  9
$PDMODE
 70
     0
  9
$PDSIZE
 40
-1.0
  9
$PLINEWID
 40
0.0
  9
$SPLFRAME
 70
     0
  9
$SPLINETYPE
 70
     6
  9
$SPLINESEGS
 70
     8
  9
$HANDSEED
  5
CB
  9
$SURFTAB1
 70
     6
  9
$SURFTAB2
 70
     6
  9
$SURFTYPE
 70
     6
  9
$SURFU
 70
     6
  9
$SURFV
 70
     6
  9
$UCSBASE
  2

  9
$UCSNAME
  2

  9
$UCSORG
 10
0.0
 20
0.0
 30
0.0
  9
$UCSXDIR
 10
1.0
 20
0.0
 30
0.0
  9
$UCSYDIR
 10
0.0
 20
1.0
 30
0.0
  9
$UCSORTHOREF
  2

  9
$UCSORTHOVIEW
 70
     0
  9
$UCSORGTOP
 10
0.0
 20
0.0
 30
0.0
  9
$UCSORGBOTTOM
 10
0.0
 20
0.0
 30
0.0
  9
$UCSORGLEFT
 10
0.0
 20
0.0
 30
0.0
  9
$UCSORGRIGHT
 10
0.0
 20
0.0
 30
0.0
  9
$UCSORGFRONT
 10
0.0
 20
0.0
 30
0.0
  9
$UCSORGBACK
 10
0.0
 20
0.0
 30
0.0
  9
$PUCSBASE
  2

  9
$PUCSNAME
  2

  9
$PUCSORG
 10
0.0
 20
0.0
 30
0.0
  9
$PUCSXDIR
 10
1.0
 20
0.0
 30
0.0
  9
$PUCSYDIR
 10
0.0
 20
1.0
 30
0.0
  9
$PUCSORTHOREF
  2

  9
$PUCSORTHOVIEW
 70
     0
  9
$PUCSORGTOP
 10
0.0
 20
0.0
 30
0.0
  9
$PUCSORGBOTTOM
 10
0.0
 20
0.0
 30
0.0
  9
$PUCSORGLEFT
 10
0.0
 20
0.0
 30
0.0
  9
$PUCSORGRIGHT
 10
0.0
 20
0.0
 30
0.0
  9
$PUCSORGFRONT
 10
0.0
 20
0.0
 30
0.0
  9
$PUCSORGBACK
 10
0.0
 20
0.0
 30
0.0
  9
$USERI1
 70
     0
  9
$USERI2
 70
     0
  9
$USERI3
 70
     0
  9
$USERI4
 70
     0
  9
$USERI5
 70
     0
  9
$USERR1
 40
0.0
  9
$USERR2
 40
0.0
  9
$USERR3
 40
0.0
  9
$USERR4
 40
0.0
  9
$USERR5
 40
0.0
  9
$WORLDVIEW
 70
     1
  9
$SHADEDGE
 70
     3
  9
$SHADEDIF
 70
    70
  9
$TILEMODE
 70
     1
  9
$MAXACTVP
 70
    64
  9
$PINSBASE
 10
0.0
 20
0.0
 30
0.0
  9
$PLIMCHECK
 70
     0
  9
$PEXTMIN
 10
1.0000000000E+20
 20
1.0000000000E+20
 30
1.0000000000E+20
  9
$PEXTMAX
 10
-1.0000000000E+20
 20
-1.0000000000E+20
 30
-1.0000000000E+20
  9
$PLIMMIN
 10
0.0
 20
0.0
  9
$PLIMMAX
 10
420.0
 20
297.0
  9
$UNITMODE
 70
     0
  9
$VISRETAIN
 70
     1
  9
$PLINEGEN
 70
     0
  9
$PSLTSCALE
 70
     1
  9
$TREEDEPTH
 70
  3020
  9
$CMLSTYLE
  2
Standard
  9
$CMLJUST
 70
     0
  9
$CMLSCALE
 40
20.0
  9
$PROXYGRAPHICS
 70
     1
  9
$MEASUREMENT
 70
     1
  9
$CELWEIGHT
370
    -1
  9
$ENDCAPS
280
     0
  9
$JOINSTYLE
280
     0
  9
$LWDISPLAY
290
     1
  9
$INSUNITS
 70
     4
  9
$HYPERLINKBASE
  1

  9
$STYLESHEET
  1

  9
$XEDIT
290
     1
  9
$CEPSNTYPE
380
     0
  9
$PSTYLEMODE
290
     1
  9
$FINGERPRINTGUID
  2
{394060e6-d25c-4803-8be4-3451f5324336}
  9
$VERSIONGUID
  2
{FAEB1C32-E019-11D5-929B-00C0DF256EC4}
  9
$EXTNAMES
290
     1
  9
$PSVPSCALE
 40
0.0
  9
$OLESTARTUP
290
     0
  0
ENDSEC
  0
SECTION
  2
CLASSES
  0
CLASS
  1
ACDBDICTIONARYWDFLT
  2
AcDbDictionaryWithDefault
  3
ObjectDBX Classes
 90
        0
280
     0
281
     0
  0
CLASS
  1
VISUALSTYLE
  2
AcDbVisualStyle
  3
ObjectDBX Classes
 90
     4095
280
     0
281
     0
  0
CLASS
  1
MATERIAL
  2
AcDbMaterial
  3
ObjectDBX Classes
 90
     1153
280
     0
281
     0
  0
CLASS
  1
SCALE
  2
AcDbScale
  3
ObjectDBX Classes
 90
     1153
280
     0
281
     0
  0
CLASS
  1
TABLESTYLE
  2
AcDbTableStyle
  3
ObjectDBX Classes
 90
     4095
280
     0
281
     0
  0
CLASS
  1
MLEADERSTYLE
  2
AcDbMLeaderStyle
  3
ACDB_MLEADERSTYLE_CLASS
 90
     4095
280
     0
281
     0
  0
CLASS
  1
SUN
  2
AcDbSun
  3
SCENEOE
 90
     1153
280
     0
281
     0
  0
CLASS
  1
ACDBPLACEHOLDER
  2
AcDbPlaceHolder
  3
ObjectDBX Classes
 90
        0
280
     0
281
     0
  0
CLASS
  1
LAYOUT
  2
AcDbLayout
  3
ObjectDBX Classes
 90
        0
280
     0
281
     0
  0
ENDSEC
  0
SECTION
  2
TABLES
  0
TABLE
  2
VPORT
  5
8
330
0
100
AcDbSymbolTable
 70
     1
  0
VPORT
  5
29
330
8
100
AcDbSymbolTableRecord
100
AcDbViewportTableRecord
  2
*Active
 70
     0
 10
0.0
 20
0.0
 11
1.0
 21
1.0
 12
139.7
 22
107.95
 13
0.0
 23
0.0
 14
10.0
 24
10.0
 15
10.0
 25
10.0
 16
0.0
 26
0.0
 36
1.0
 17
0.0
 27
0.0
 37
0.0
 40
215.9
 41
1.2941176471
 42
50.0
 43
0.0
 44
0.0
 50
0.0
 51
0.0
 71
     0
 72
  2000
 73
     1
 74
     3
 75
     0
 76
     0
 77
     0
 78
     0
281
     0
 65
     1
110
0.0
120
0.0
130
0.0
111
1.0
121
0.0
131
0.0
112
0.0
122
1.0
132
0.0
 79
     0
146
0.0
  0
ENDTAB
  0
TABLE
  2
LTYPE
  5
5
330
0
100
AcDbSymbolTable
 70
     6
  0
LTYPE
  5
14
330
5
100
AcDbSymbolTableRecord
100
AcDbLinetypeTableRecord
  2
ByBlock
 70
     0
  3

 72
    65
 73
     0
 40
0.0
  0
LTYPE
  5
15
330
5
100
AcDbSymbolTableRecord
100
AcDbLinetypeTableRecord
  2
ByLayer
 70
     0
  3

 72
    65
 73
     0
 40
0.0
  0
LTYPE
  5
16
330
5
100
AcDbSymbolTableRecord
100
AcDbLinetypeTableRecord
  2
Continuous
 70
     0
  3
Solid line
 72
    65
 73
     0
 40
0.0
  0
LTYPE
  5
6E
330
5
100
AcDbSymbolTableRecord
100
AcDbLinetypeTableRecord
  2
HIDDEN
 70
     0
  3
Hidden __ __ __ __ __ __ __ __ __ __ __ __ __ __
 72
    65
 73
     2
 40
1.905
 49
1.27
 74
     0
 49
-0.635
 74
     0
  0
LTYPE
  5
6F
330
5
100
AcDbSymbolTableRecord
100
AcDbLinetypeTableRecord
  2
PHANTOM
 70
     0
  3
Phantom ______  __  __  ______  __  __  ______
 72
    65
 73
     6
 40
12.7
 49
6.35
 74
     0
 49
-1.27
 74
     0
 49
1.27
 74
     0
 49
-1.27
 74
     0
 49
1.27
 74
     0
 49
-1.27
 74
     0
  0
LTYPE
  5
70
330
5
100
AcDbSymbolTableRecord
100
AcDbLinetypeTableRecord
  2
CENTER
 70
     0
  3
Center ____ _ ____ _ ____ _ ____ _ ____ _ ____
 72
    65
 73
     4
 40
10.16
 49
6.35
 74
     0
 49
-1.27
 74
     0
 49
1.27
 74
     0
 49
-1.27
 74
     0
  0
LTYPE
  5
71
330
5
100
AcDbSymbolTableRecord
100
AcDbLinetypeTableRecord
  2
CENTERX2
 70
     0
  3
Center (2x) ________  __  ________  __  _____
 72
    65
 73
     4
 40
20.32
 49
12.7
 74
     0
 49
-2.54
 74
     0
 49
2.54
 74
     0
 49
-2.54
 74
     0
  0
LTYPE
  5
72
330
5
100
AcDbSymbolTableRecord
100
AcDbLinetypeTableRecord
  2
DOT2
 70
     0
  3
Dot (.5x) ........................................
 72
    65
 73
     2
 40
0.635
 49
0.0
 74
     0
 49
-0.635
 74
     0
  0
ENDTAB
  0
TABLE
  2
LAYER
  5
2
330
0
100
AcDbSymbolTable
 70
    17
  0
LAYER
  5
10
330
2
100
AcDbSymbolTableRecord
100
AcDbLayerTableRecord
  2
0
 70
     0
 62
     7
  6
Continuous
370
    -3
390
F
  0
LAYER
  5
73
330
2
100
AcDbSymbolTableRecord
100
AcDbLayerTableRecord
  2
FORMAT
 70
     0
 62
     7
  6
Continuous
370
    -3
390
F
  0
LAYER
  5
74
330
2
100
AcDbSymbolTableRecord
100
AcDbLayerTableRecord
  2
YARDIMCI_GEOMETRI
 70
     0
 62
    -6
  6
Continuous
290
     0
370
    -3
390
F
  0
LAYER
  5
75
330
2
100
AcDbSymbolTableRecord
100
AcDbLayerTableRecord
  2
SAYFA_CERCEVESI
 70
     0
 62
     7
  6
Continuous
370
    25
390
F
  0
LAYER
  5
76
330
2
100
AcDbSymbolTableRecord
100
AcDbLayerTableRecord
  2
ANTET
 70
     0
 62
     7
  6
Continuous
370
    -3
390
F
  0
LAYER
  5
77
330
2
100
AcDbSymbolTableRecord
100
AcDbLayerTableRecord
  2
OLCU
 70
     0
 62
   150
  6
Continuous
370
    -3
390
F
  0
LAYER
  5
78
330
2
100
AcDbSymbolTableRecord
100
AcDbLayerTableRecord
  2
METIN
 70
     0
 62
    96
  6
Continuous
370
    -3
390
F
  0
LAYER
  5
79
330
2
100
AcDbSymbolTableRecord
100
AcDbLayerTableRecord
  2
BALON
 70
     0
 62
     5
  6
Continuous
370
    -3
390
F
  0
LAYER
  5
7A
330
2
100
AcDbSymbolTableRecord
100
AcDbLayerTableRecord
  2
VURGU
 70
     0
 62
     7
  6
Continuous
370
    -3
390
F
  0
LAYER
  5
7B
330
2
100
AcDbSymbolTableRecord
100
AcDbLayerTableRecord
  2
SILIK
 70
     0
 62
     7
  6
Continuous
370
    -3
390
F
  0
LAYER
  5
7C
330
2
100
AcDbSymbolTableRecord
100
AcDbLayerTableRecord
  2
MODEL
 70
     0
 62
     7
  6
Continuous
370
    -3
390
F
  0
LAYER
  5
7D
330
2
100
AcDbSymbolTableRecord
100
AcDbLayerTableRecord
  2
DETAYLANDıRMA
 70
     0
 62
   190
  6
Continuous
370
    -3
390
F
  0
LAYER
  5
7E
330
2
100
AcDbSymbolTableRecord
100
AcDbLayerTableRecord
  2
TOLERANS
 70
     0
 62
   230
  6
Continuous
370
    -3
390
F
  0
LAYER
  5
7F
330
2
100
AcDbSymbolTableRecord
100
AcDbLayerTableRecord
  2
MERKEZ_CIZGILERI
 70
     0
 62
    30
  6
Continuous
370
    -3
390
F
  0
LAYER
  5
80
330
2
100
AcDbSymbolTableRecord
100
AcDbLayerTableRecord
  2
KESIT-DETAY_CIZGILERI
 70
     0
 62
     7
  6
Continuous
370
    -3
390
F
  0
LAYER
  5
81
330
2
100
AcDbSymbolTableRecord
100
AcDbLayerTableRecord
  2
\U+041E\U+0421\U+0415\U+0412\U+042B\U+0415
 70
     0
 62
     7
  6
Continuous
370
    -3
390
F
  0
LAYER
  5
82
330
2
100
AcDbSymbolTableRecord
100
AcDbLayerTableRecord
  2
\U+0412\U+041E\U+0414\U+042F\U+041D\U+042B\U+0415_\U+0417\U+041D\U+0410\U+041A\U+0418
 70
     0
 62
    11
  6
Continuous
370
    -3
390
F
  0
ENDTAB
  0
TABLE
  2
STYLE
  5
3
330
0
100
AcDbSymbolTable
 70
     1
  0
STYLE
  5
11
330
3
100
AcDbSymbolTableRecord
100
AcDbTextStyleTableRecord
  2
Standard
 70
     0
 40
0.0
 41
1.0
 50
0.0
 71
     0
 42
3.5
  3
txt
  4

  0
ENDTAB
  0
TABLE
  2
VIEW
  5
6
330
0
100
AcDbSymbolTable
 70
     0
  0
ENDTAB
  0
TABLE
  2
UCS
  5
7
330
0
100
AcDbSymbolTable
 70
     0
  0
ENDTAB
  0
TABLE
  2
APPID
  5
9
330
0
100
AcDbSymbolTable
 70
     1
  0
APPID
  5
12
330
9
100
AcDbSymbolTableRecord
100
AcDbRegAppTableRecord
  2
ACAD
 70
     0
  0
ENDTAB
  0
TABLE
  2
DIMSTYLE
  5
A
330
0
100
AcDbSymbolTable
 70
     1
100
AcDbDimStyleTable
  0
DIMSTYLE
105
27
330
A
100
AcDbSymbolTableRecord
100
AcDbDimStyleTableRecord
  2
ISO-25
 70
     0
 41
2.5
 42
0.625
 43
3.75
 44
1.25
 73
     0
 74
     0
 77
     1
 78
     8
140
2.5
141
2.5
143
0.0393700787
147
0.625
171
     3
172
     1
178
     0
271
     2
272
     2
274
     3
278
    44
283
     0
284
     8
340
11
  0
ENDTAB
  0
TABLE
  2
BLOCK_RECORD
  5
1
330
0
100
AcDbSymbolTable
 70
     3
  0
BLOCK_RECORD
  5
1F
330
1
100
AcDbSymbolTableRecord
100
AcDbBlockTableRecord
  2
*Model_Space
340
22
  0
BLOCK_RECORD
  5
1B
330
1
100
AcDbSymbolTableRecord
100
AcDbBlockTableRecord
  2
*Paper_Space
340
1E
  0
BLOCK_RECORD
  5
23
330
1
100
AcDbSymbolTableRecord
100
AcDbBlockTableRecord
  2
*Paper_Space0
340
26
  0
BLOCK_RECORD
  5
88
330
1
100
AcDbSymbolTableRecord
100
AcDbBlockTableRecord
  2
SW_CENTERMARKSYMBOL_0
340
0
102
{BLKREFS
331
93
102
}
  0
BLOCK_RECORD
  5
9C
330
1
100
AcDbSymbolTableRecord
100
AcDbBlockTableRecord
  2
SW_CENTERMARKSYMBOL_1
340
0
102
{BLKREFS
331
A7
102
}
  0
ENDTAB
  0
ENDSEC
  0
SECTION
  2
BLOCKS
  0
BLOCK
  5
20
330
1F
100
AcDbEntity
  8
0
100
AcDbBlockBegin
  2
*Model_Space
 70
     0
 10
0.0
 20
0.0
 30
0.0
  3
*Model_Space
  1

  0
ENDBLK
  5
21
330
1F
100
AcDbEntity
  8
0
100
AcDbBlockEnd
  0
BLOCK
  5
1C
330
1B
100
AcDbEntity
 67
     1
  8
0
100
AcDbBlockBegin
  2
*Paper_Space
 70
     0
 10
0.0
 20
0.0
 30
0.0
  3
*Paper_Space
  1

  0
ENDBLK
  5
1D
330
1B
100
AcDbEntity
 67
     1
  8
0
100
AcDbBlockEnd
  0
BLOCK
  5
24
330
23
100
AcDbEntity
  8
0
100
AcDbBlockBegin
  2
*Paper_Space0
 70
     0
 10
0.0
 20
0.0
 30
0.0
  3
*Paper_Space0
  1

  0
ENDBLK
  5
25
330
23
100
AcDbEntity
  8
0
100
AcDbBlockEnd
  0
BLOCK
  5
89
330
88
100
AcDbEntity
  8
0
100
AcDbBlockBegin
  2
SW_CENTERMARKSYMBOL_0
 70
     0
 10
0.0
 20
0.0
 30
0.0
  3
SW_CENTERMARKSYMBOL_0
  1

  0
LINE
  5
8B
330
88
100
AcDbEntity
  8
FORMAT
 62
     0
100
AcDbLine
 10
0.0
 20
0.0
 30
0.0
 11
2.5
 21
0.0
 31
0.0
  0
LINE
  5
8C
330
88
100
AcDbEntity
  8
FORMAT
 62
     0
100
AcDbLine
 10
0.0
 20
0.0
 30
0.0
 11
0.0
 21
2.5
 31
0.0
  0
LINE
  5
8D
330
88
100
AcDbEntity
  8
FORMAT
 62
     0
100
AcDbLine
 10
0.0
 20
0.0
 30
0.0
 11
-2.5
 21
0.0
 31
0.0
  0
LINE
  5
8E
330
88
100
AcDbEntity
  8
FORMAT
 62
     0
100
AcDbLine
 10
0.0
 20
0.0
 30
0.0
 11
0.0
 21
-2.5
 31
0.0
  0
LINE
  5
8F
330
88
100
AcDbEntity
  8
FORMAT
 62
     0
100
AcDbLine
 10
5.0
 20
0.0
 30
0.0
 11
47.5
 21
0.0
 31
0.0
  0
LINE
  5
90
330
88
100
AcDbEntity
  8
FORMAT
 62
     0
100
AcDbLine
 10
0.0
 20
5.0
 30
0.0
 11
0.0
 21
47.5
 31
0.0
  0
LINE
  5
91
330
88
100
AcDbEntity
  8
FORMAT
 62
     0
100
AcDbLine
 10
-5.0
 20
0.0
 30
0.0
 11
-47.5
 21
0.0
 31
0.0
  0
LINE
  5
92
330
88
100
AcDbEntity
  8
FORMAT
 62
     0
100
AcDbLine
 10
0.0
 20
-5.0
 30
0.0
 11
0.0
 21
-47.5
 31
0.0
  0
ENDBLK
  5
8A
330
88
100
AcDbEntity
  8
0
100
AcDbBlockEnd
  0
BLOCK
  5
9D
330
9C
100
AcDbEntity
  8
0
100
AcDbBlockBegin
  2
SW_CENTERMARKSYMBOL_1
 70
     0
 10
0.0
 20
0.0
 30
0.0
  3
SW_CENTERMARKSYMBOL_1
  1

  0
LINE
  5
9F
330
9C
100
AcDbEntity
  8
FORMAT
 62
     0
100
AcDbLine
 10
0.0
 20
0.0
 30
0.0
 11
0.0
 21
2.5
 31
0.0
  0
LINE
  5
A0
330
9C
100
AcDbEntity
  8
FORMAT
 62
     0
100
AcDbLine
 10
0.0
 20
0.0
 30
0.0
 11
-2.5
 21
0.0
 31
0.0
  0
LINE
  5
A1
330
9C
100
AcDbEntity
  8
FORMAT
 62
     0
100
AcDbLine
 10
0.0
 20
0.0
 30
0.0
 11
0.0
 21
-2.5
 31
0.0
  0
LINE
  5
A2
330
9C
100
AcDbEntity
  8
FORMAT
 62
     0
100
AcDbLine
 10
0.0
 20
0.0
 30
0.0
 11
2.5
 21
0.0
 31
0.0
  0
LINE
  5
A3
330
9C
100
AcDbEntity
  8
FORMAT
 62
     0
100
AcDbLine
 10
0.0
 20
5.0
 30
0.0
 11
0.0
 21
34.0
 31
0.0
  0
LINE
  5
A4
330
9C
100
AcDbEntity
  8
FORMAT
 62
     0
100
AcDbLine
 10
-5.0
 20
0.0
 30
0.0
 11
-34.0
 21
0.0
 31
0.0
  0
LINE
  5
A5
330
9C
100
AcDbEntity
  8
FORMAT
 62
     0
100
AcDbLine
 10
0.0
 20
-5.0
 30
0.0
 11
0.0
 21
-34.0
 31
0.0
  0
LINE
  5
A6
330
9C
100
AcDbEntity
  8
FORMAT
 62
     0
100
AcDbLine
 10
5.0
 20
0.0
 30
0.0
 11
34.0
 21
0.0
 31
0.0
  0
ENDBLK
  5
9E
330
9C
100
AcDbEntity
  8
0
100
AcDbBlockEnd
  0
ENDSEC
  0
SECTION
  2
ENTITIES
  0
LINE
  5
83
330
1F
100
AcDbEntity
  8
0
  6
Continuous
 62
     7
370
    25
100
AcDbLine
 10
108.7388270586
 20
120.9787268627
 30
0.0
 11
108.7388270586
 21
21.1832624364
 31
0.0
  0
LINE
  5
84
330
1F
100
AcDbEntity
  8
0
  6
Continuous
 62
     7
370
    25
100
AcDbLine
 10
171.7388280719
 20
21.1832624364
 30
0.0
 11
171.7388280719
 21
121.0361484873
 31
0.0
  0
CIRCLE
  5
85
330
1F
100
AcDbEntity
  8
0
  6
Continuous
 62
     7
370
    25
100
AcDbCircle
 10
140.2388275653
 20
153.1832617212
 30
0.0
 40
39.59999999999998
  0
CIRCLE
  5
86
330
1F
100
AcDbEntity
  8
0
  6
Continuous
 62
     7
370
    25
100
AcDbCircle
 10
140.2388275653
 20
153.1832617212
 30
0.0
 40
44.99999999999999
  0
LINE
  5
87
330
1F
100
AcDbEntity
  8
0
  6
Continuous
 62
     7
370
    25
100
AcDbLine
 10
171.7388280719
 20
21.1832624364
 30
0.0
 11
108.7388270586
 21
21.1832624364
 31
0.0
  0
INSERT
  5
93
330
1F
100
AcDbEntity
  8
FORMAT
 62
     7
100
AcDbBlockReference
  2
SW_CENTERMARKSYMBOL_0
 10
140.2388275653
 20
153.1832617212
 30
0.0
  0
LINE
  5
94
330
1F
100
AcDbEntity
  8
0
  6
Continuous
 62
     7
370
    25
100
AcDbLine
 10
185.2388293534
 20
246.6056376458
 30
0.0
 11
185.2388293534
 21
536.6056293011
 31
0.0
  0
LINE
  5
95
330
1F
100
AcDbEntity
  8
0
  6
Continuous
 62
     7
370
    25
100
AcDbLine
 10
95.2388257771
 20
536.6056293011
 30
0.0
 11
95.2388257771
 21
246.6056376458
 31
0.0
  0
CIRCLE
  5
96
330
1F
100
AcDbEntity
  8
0
  6
Continuous
 62
     7
370
    25
100
AcDbCircle
 10
140.2388275653
 20
391.6056334734
 30
0.0
 40
27.69999999999999
  0
CIRCLE
  5
97
330
1F
100
AcDbEntity
  8
0
  6
Continuous
 62
     7
370
    25
100
AcDbCircle
 10
140.2388275653
 20
391.6056334734
 30
0.0
 40
31.49999999999994
  0
LINE
  5
98
330
1F
100
AcDbEntity
  8
0
  6
Continuous
 62
     7
370
    25
100
AcDbLine
 10
140.2388275653
 20
536.6056293011
 30
0.0
 11
185.2388293534
 21
536.6056293011
 31
0.0
  0
LINE
  5
99
330
1F
100
AcDbEntity
  8
0
  6
Continuous
 62
     7
370
    25
100
AcDbLine
 10
95.2388257771
 20
536.6056293011
 30
0.0
 11
140.2388275653
 21
536.6056293011
 31
0.0
  0
LINE
  5
9A
330
1F
100
AcDbEntity
  8
0
  6
Continuous
 62
     7
370
    25
100
AcDbLine
 10
140.2388275653
 20
246.6056376458
 30
0.0
 11
185.2388293534
 21
246.6056376458
 31
0.0
  0
LINE
  5
9B
330
1F
100
AcDbEntity
  8
0
  6
Continuous
 62
     7
370
    25
100
AcDbLine
 10
95.2388257771
 20
246.6056376458
 30
0.0
 11
140.2388275653
 21
246.6056376458
 31
0.0
  0
INSERT
  5
A7
330
1F
100
AcDbEntity
  8
FORMAT
100
AcDbBlockReference
  2
SW_CENTERMARKSYMBOL_1
 10
140.2388275653
 20
391.6056334734
 30
0.0
  0
LINE
  5
A8
330
1F
100
AcDbEntity
  8
0
  6
Continuous
 62
     7
370
    25
100
AcDbLine
 10
14.096818446
 20
198.1832635093
 30
0.0
 11
-275.9031732094
 21
198.1832635093
 31
0.0
  0
LINE
  5
A9
330
1F
100
AcDbEntity
  8
0
  6
Continuous
 62
     7
370
    25
100
AcDbLine
 10
-99.4054194998
 20
108.183259933
 30
0.0
 11
14.096818446
 21
108.183259933
 31
0.0
  0
LINE
  5
AA
330
1F
100
AcDbEntity
  8
0
  6
Continuous
 62
     7
370
    25
100
AcDbLine
 10
-275.9031732094
 20
108.183259933
 30
0.0
 11
-162.4031778884
 21
108.183259933
 31
0.0
  0
LINE
  5
AB
330
1F
100
AcDbEntity
  8
0
  6
Continuous
 62
     7
370
    25
100
AcDbLine
 10
-162.4031778884
 20
108.183259933
 30
0.0
 11
-162.4031778884
 21
21.1832624364
 31
0.0
  0
LINE
  5
AC
330
1F
100
AcDbEntity
  8
0
  6
Continuous
 62
     7
370
    25
100
AcDbLine
 10
-99.4031768751
 20
21.1832624364
 30
0.0
 11
-99.4031768751
 21
108.1848208296
 31
0.0
  0
LWPOLYLINE
  5
AD
330
1F
100
AcDbEntity
  8
0
  6
Continuous
 62
     7
370
    25
100
AcDbPolyline
 90
       28
 70
   128
 43
0.0
 10
-99.4054194998
 20
108.1848245549
 10
-99.7561574441
 20
108.4296357322
 10
-100.6778166157
 20
109.0661164808
 10
-102.1711886388
 20
110.0755211401
 10
-104.2645521921
 20
111.4415999937
 10
-106.894469307
 20
113.0688254225
 10
-110.4486141812
 20
115.0894415069
 10
-114.6234259468
 20
117.1585422445
 10
-118.730253027
 20
118.8185986567
 10
-120.9809430402
 20
119.5498023617
 10
-123.3202632975
 20
120.1643187988
 10
-127.0950010039
 20
120.8219852734
 10
-131.0845269145
 20
121.0463222552
 10
-134.9641265806
 20
120.7912665296
 10
-138.8383362901
 20
120.0816508818
 10
-143.3908254367
 20
118.7058564711
 10
-147.6699918967
 20
116.9358332145
 10
-151.5091214788
 20
115.007943331
 10
-154.9411755514
 20
113.0512867558
 10
-156.6736069035
 20
111.9903129029
 10
-158.211987884
 20
111.0107440937
 10
-159.5844071817
 20
110.1094212818
 10
-160.7086793047
 20
109.3527030635
 10
-161.4272114348
 20
108.8610057223
 10
-161.9548224371
 20
108.495964526
 10
-162.2901265037
 20
108.2623962748
 10
-162.4031778884
 20
108.183259933
 10
-162.4031778884
 20
108.183259933
  0
LINE
  5
AE
330
1F
100
AcDbEntity
  8
0
  6
Continuous
 62
     7
370
    25
100
AcDbLine
 10
-275.9031732094
 20
108.183259933
 30
0.0
 11
-275.9031732094
 21
198.1832635093
 31
0.0
  0
LINE
  5
AF
330
1F
100
AcDbEntity
  8
0
  6
Continuous
 62
     7
370
    25
100
AcDbLine
 10
14.096818446
 20
108.183259933
 30
0.0
 11
14.096818446
 21
198.1832635093
 31
0.0
  0
LINE
  5
B0
330
1F
100
AcDbEntity
  8
0
  6
Continuous
 62
     7
370
    25
100
AcDbLine
 10
-99.4031768751
 20
21.1832624364
 30
0.0
 11
-162.4031778884
 21
21.1832624364
 31
0.0
  0
LINE
  5
B1
330
1F
100
AcDbEntity
  8
0
  6
Continuous
 62
     7
370
    25
100
AcDbLine
 10
448.1117257197
 20
108.183259933
 30
0.0
 11
561.6117210407
 21
108.183259933
 31
0.0
  0
LINE
  5
B2
330
1F
100
AcDbEntity
  8
0
  6
Continuous
 62
     7
370
    25
100
AcDbLine
 10
271.6117293854
 20
108.183259933
 30
0.0
 11
385.1139673312
 21
108.183259933
 31
0.0
  0
LINE
  5
B3
330
1F
100
AcDbEntity
  8
0
  6
Continuous
 62
     7
370
    25
100
AcDbLine
 10
561.6117210407
 20
198.1832635093
 30
0.0
 11
271.6117293854
 21
198.1832635093
 31
0.0
  0
LINE
  5
B4
330
1F
100
AcDbEntity
  8
0
  6
Continuous
 62
     7
370
    25
100
AcDbLine
 10
385.1117247064
 20
108.1848208296
 30
0.0
 11
385.1117247064
 21
21.1832624364
 31
0.0
  0
LINE
  5
B5
330
1F
100
AcDbEntity
  8
0
  6
Continuous
 62
     7
370
    25
100
AcDbLine
 10
448.1117257197
 20
21.1832624364
 30
0.0
 11
448.1117257197
 21
108.183259933
 31
0.0
  0
SPLINE
  5
B6
330
1F
100
AcDbEntity
  8
0
  6
Continuous
 62
     7
370
    25
100
AcDbSpline
210
0.0
220
0.0
230
1.0
 70
     8
 71
     3
 72
    35
 73
    31
 74
     0
 42
0.000000001
 43
0.00000001
 40
0.0
 40
0.0
 40
0.0
 40
0.0
 40
0.0448858770700663
 40
0.0912353956679989
 40
0.136087708346179
 40
0.1820530444526435
 40
0.2309958116573953
 40
0.2809737464458507
 40
0.309549050433049
 40
0.3383151691796131
 40
0.3677332142739902
 40
0.3974152213183982
 40
0.4368665411966595
 40
0.4773459545522409
 40
0.5168491442521239
 40
0.5576811821119954
 40
0.5948505775112634
 40
0.632768801699777
 40
0.6610448545067935
 40
0.6895317275695505
 40
0.7186265401310672
 40
0.7479179761511571
 40
0.7765000320995443
 40
0.8052798712907024
 40
0.8347334783197993
 40
0.8644490270491559
 40
0.9091123641891912
 40
0.9550071848512824
 40
0.9997085642829024
 40
1.0
 40
1.0
 40
1.0
 40
1.0
 10
448.1117257196746
 20
108.1832599330118
 30
0.0
 10
448.0459294459794
 20
108.2294429498863
 30
0.0
 10
447.912191409521
 20
108.3233149223801
 30
0.0
 10
446.8486158570005
 20
109.0618930472351
 30
0.0
 10
445.2041856137574
 20
110.176122618897
 30
0.0
 10
442.9569975060688
 20
111.6434841896161
 30
0.0
 10
440.1044300831241
 20
113.4025930069551
 30
0.0
 10
437.1676805745583
 20
115.0623975783849
 30
0.0
 10
434.4395279818953
 20
116.4506867557476
 30
0.0
 10
432.0859872243686
 20
117.5378346842352
 30
0.0
 10
429.5551509312644
 20
118.5666573319679
 30
0.0
 10
426.5558789719581
 20
119.590562177779
 30
0.0
 10
423.023113790184
 20
120.4907555243403
 30
0.0
 10
418.9838054388562
 20
121.0470657534974
 30
0.0
 10
414.8180661359507
 20
121.0860661566568
 30
0.0
 10
410.8247723907211
 20
120.6051188476154
 30
0.0
 10
407.0558857343947
 20
119.7141886652873
 30
0.0
 10
403.8877440428988
 20
118.6552313179813
 30
0.0
 10
401.1612764334877
 20
117.5471598380036
 30
0.0
 10
398.8287084710589
 20
116.4726605231062
 30
0.0
 10
396.6169025588524
 20
115.3489792626791
 30
0.0
 10
394.5586828233301
 20
114.2190648860334
 30
0.0
 10
392.6697676430363
 20
113.1173025633304
 30
0.0
 10
390.9485636554839
 20
112.0639139003775
 30
0.0
 10
389.3934666352603
 20
111.0742233731326
 30
0.0
 10
387.8090323363278
 20
110.0338990318393
 30
0.0
 10
386.3456467807509
 20
109.041494399373
 30
0.0
 10
385.3992584399047
 20
108.3848242176277
 30
0.0
 10
384.9979012600853
 20
108.1038877066948
 30
0.0
 10
385.1132203650908
 20
108.1843036699064
 30
0.0
 10
385.1139673311553
 20
108.1848245549372
 30
0.0
  0
LINE
  5
B7
330
1F
100
AcDbEntity
  8
0
  6
Continuous
 62
     7
370
    25
100
AcDbLine
 10
561.6117210407
 20
198.1832635093
 30
0.0
 11
561.6117210407
 21
108.183259933
 31
0.0
  0
LINE
  5
B8
330
1F
100
AcDbEntity
  8
0
  6
Continuous
 62
     7
370
    25
100
AcDbLine
 10
271.6117293854
 20
198.1832635093
 30
0.0
 11
271.6117293854
 21
108.183259933
 31
0.0
  0
LINE
  5
B9
330
1F
100
AcDbEntity
  8
0
  6
Continuous
 62
     7
370
    25
100
AcDbLine
 10
448.1117257197
 20
21.1832624364
 30
0.0
 11
385.1117247064
 21
21.1832624364
 31
0.0
  0
LINE
  5
BA
330
1F
100
AcDbEntity
  8
0
  6
Continuous
 62
     7
370
    25
100
AcDbLine
 10
95.2388257771
 20
-20.6860107318
 30
0.0
 11
95.2388257771
 21
-310.6860023871
 31
0.0
  0
LINE
  5
BB
330
1F
100
AcDbEntity
  8
0
  6
Continuous
 62
     7
370
    25
100
AcDbLine
 10
185.2388293534
 20
-310.6860023871
 30
0.0
 11
185.2388293534
 21
-20.6860107318
 31
0.0
  0
LINE
  5
BC
330
1F
100
AcDbEntity
  8
0
  6
Continuous
 62
     7
370
    25
100
AcDbLine
 10
185.2388293534
 20
-310.6860023871
 30
0.0
 11
95.2388257771
 21
-310.6860023871
 31
0.0
  0
LINE
  5
BD
330
1F
100
AcDbEntity
  8
0
  6
Continuous
 62
     7
370
    25
100
AcDbLine
 10
185.2388293534
 20
-20.6860107318
 30
0.0
 11
95.2388257771
 21
-20.6860107318
 31
0.0
  0
LINE
  5
BE
330
1F
100
AcDbEntity
  8
0
  6
Continuous
 62
     7
370
    25
100
AcDbLine
 10
514.8140781003
 20
-156.4690979982
 30
0.0
 11
309.7531174567
 21
-38.0899251902
 31
0.0
  0
LINE
  5
BF
330
1F
100
AcDbEntity
  8
0
  6
Continuous
 62
     7
370
    25
100
AcDbLine
 10
264.7567732016
 20
-116.0343235462
 30
0.0
 11
358.2854249098
 21
-170.0272649053
 31
0.0
  0
LINE
  5
C0
330
1F
100
AcDbEntity
  8
0
  6
Continuous
 62
     7
370
    25
100
AcDbLine
 10
421.2854270506
 20
-206.3963920025
 30
0.0
 11
469.8177338451
 21
-234.4134963542
 31
0.0
  0
LINE
  5
C1
330
1F
100
AcDbEntity
  8
0
  6
Continuous
 62
     7
370
    25
100
AcDbLine
 10
358.2854268855
 20
-168.1720919608
 30
0.0
 11
358.2854268855
 21
-244.0350973571
 31
0.0
  0
LINE
  5
C2
330
1F
100
AcDbEntity
  8
0
  6
Continuous
 62
     7
370
    25
100
AcDbLine
 10
421.2854244164
 20
-244.0350973571
 30
0.0
 11
421.2854244164
 21
-168.1683504834
 31
0.0
  0
SPLINE
  5
C3
330
1F
100
AcDbEntity
  8
0
  6
Continuous
 62
     7
370
    25
100
AcDbSpline
210
0.0
220
0.0
230
1.0
 70
     8
 71
     3
 72
    13
 73
     9
 74
     0
 42
0.000000001
 43
0.00000001
 40
0.0
 40
0.0
 40
0.0
 40
0.0
 40
0.1805361798303859
 40
0.3669592948691361
 40
0.5473604748402118
 40
0.7322383635428675
 40
0.9290918238791995
 40
1.0
 40
1.0
 40
1.0
 40
1.0
 10
367.5115616853044
 20
-160.1376207991024
 30
0.0
 10
366.4680994442323
 20
-160.755932232382
 30
0.0
 10
364.3471496791155
 20
-162.0127170373945
 30
0.0
 10
361.9032679160456
 20
-163.6898975101169
 30
0.0
 10
360.0309724044121
 20
-165.1992589706238
 30
0.0
 10
358.8299266928551
 20
-166.5453902251022
 30
0.0
 10
358.2612586910876
 20
-167.5159664474123
 30
0.0
 10
358.3455610671994
 20
-168.0338786647277
 30
0.0
 10
358.367885877474
 20
-168.1710312875098
 30
0.0
  0
SPLINE
  5
C4
330
1F
100
AcDbEntity
  8
0
  6
Continuous
 62
     7
370
    25
100
AcDbSpline
210
0.0
220
0.0
230
1.0
 70
     8
 71
     3
 72
    28
 73
    24
 74
     0
 42
0.000000001
 43
0.00000001
 40
0.0
 40
0.0
 40
0.0
 40
0.0
 40
0.0345090853997996
 40
0.1062858457144426
 40
0.1696300894744224
 40
0.2020060002868897
 40
0.2346286398484644
 40
0.2850093552522788
 40
0.3367911714072821
 40
0.3872060571468895
 40
0.4390851795362309
 40
0.5038599288547361
 40
0.5704798950418901
 40
0.6371177175276914
 40
0.705127034904562
 40
0.744122327496975
 40
0.7834288540601079
 40
0.8238264365182504
 40
0.8646582995662141
 40
0.8977006584849577
 40
0.9310314209096034
 40
0.9653352980217494
 40
1.0
 40
1.0
 40
1.0
 40
1.0
 10
421.1847751079843
 20
-168.1682744494845
 30
0.0
 10
421.2045434643927
 20
-167.4215632260251
 30
0.0
 10
421.2654287777792
 20
-165.1217389052592
 30
0.0
 10
420.5136646268321
 20
-161.446367207634
 30
0.0
 10
419.2846590104284
 20
-157.9978622821319
 30
0.0
 10
417.9726141540644
 20
-155.5426168564928
 30
0.0
 10
416.5830645360305
 20
-153.4848781684171
 30
0.0
 10
414.6368161874708
 20
-151.3598211065703
 30
0.0
 10
412.0139504094342
 20
-149.4731787928557
 30
0.0
 10
409.0143615284862
 20
-148.1805850296073
 30
0.0
 10
405.4863024516779
 20
-147.4473956820891
 30
0.0
 10
401.3884009577942
 20
-147.3867765769056
 30
0.0
 10
396.8022912328359
 20
-148.0293103387754
 30
0.0
 10
392.0394115239941
 20
-149.2270692929067
 30
0.0
 10
387.8775442455233
 20
-150.6157961863411
 30
0.0
 10
384.373226879698
 20
-151.9581465440534
 30
0.0
 10
381.5447229555275
 20
-153.1311360198536
 30
0.0
 10
378.7084326985319
 20
-154.3888808271308
 30
0.0
 10
376.0796194329524
 20
-155.6255501183809
 30
0.0
 10
373.6910062271048
 20
-156.8050039514736
 30
0.0
 10
371.5364425853062
 20
-157.9154665414916
 30
0.0
 10
369.4469045784639
 20
-159.0364157008851
 30
0.0
 10
368.158922107799
 20
-159.7692743938453
 30
0.0
 10
367.5115616853044
 20
-160.1376207991024
 30
0.0
  0
LWPOLYLINE
  5
C5
330
1F
100
AcDbEntity
  8
0
  6
Continuous
 62
     7
370
    25
100
AcDbPolyline
 90
       87
 70
   128
 43
0.0
 10
287.2549453292
 20
-113.8064623631
 10
289.5776420163
 20
-112.3675744401
 10
291.8879462128
 20
-110.7403164147
 10
294.1735309534
 20
-108.9333710461
 10
296.4222022987
 20
-106.9563785288
 10
298.6219622263
 20
-104.8198880189
 10
300.761074156
 20
-102.5352954725
 10
302.8281255115
 20
-100.114795362
 10
304.8120869893
 20
-97.5712977916
 10
306.7023744621
 20
-94.9183745097
 10
308.4889003451
 20
-92.1701836284
 10
310.1621341823
 20
-89.3413814152
 10
311.7131487442
 20
-86.4470652626
 10
313.1336661264
 20
-83.5026771139
 10
314.4161104329
 20
-80.5239243796
 10
315.5536380691
 20
-77.5267031339
 10
316.5401825231
 20
-74.5270007793
 10
317.3704754388
 20
-71.5408253259
 10
318.0400887629
 20
-68.5841088162
 10
318.5454505499
 20
-65.6726259572
 10
318.8838634017
 20
-62.8219112317
 10
319.0535229062
 20
-60.0471738234
 10
319.0535229062
 20
-57.3632187189
 10
318.8838634017
 20
-54.784366005
 10
318.5454505499
 20
-52.3243744414
 10
318.0400887629
 20
-49.996369882
 10
317.3704754388
 20
-47.81277246
 10
316.5401825231
 20
-45.7852328019
 10
315.5536380691
 20
-43.9245704287
 10
314.4161104329
 20
-42.2407106362
 10
313.1336661264
 20
-40.742636581
 10
311.7131487442
 20
-39.4383428914
 10
310.1621341823
 20
-38.3347900345
 10
308.4889003451
 20
-37.4378624886
 10
306.7023744621
 20
-36.7523504865
 10
304.8120869893
 20
-36.2819066653
 10
302.8281255115
 20
-36.0290422596
 10
300.761074156
 20
-35.9951088447
 10
298.6219622263
 20
-36.1802823618
 10
296.4222022987
 20
-36.5835806034
 10
294.1735309534
 20
-37.2028487585
 10
291.8879462128
 20
-38.0347833613
 10
289.5776420163
 20
-39.0749457836
 10
287.2549453292
 20
-40.3177863732
 10
284.9322486421
 20
-41.7566742963
 10
282.6219444455
 20
-43.3839323217
 10
280.3363597049
 20
-45.1908776903
 10
278.0876883596
 20
-47.1678702076
 10
275.887928432
 20
-49.3043607175
 10
273.7488165023
 20
-51.5889532639
 10
271.6817651468
 20
-54.0094533744
 10
269.697803669
 20
-56.5529509448
 10
267.8075161962
 20
-59.2058742267
 10
266.0209903132
 20
-61.954065108
 10
264.347756476
 20
-64.7828673212
 10
262.7967419141
 20
-67.6771834738
 10
261.3762245319
 20
-70.6215716225
 10
260.0937802254
 20
-73.6003243568
 10
258.9562525892
 20
-76.5975456025
 10
257.9697081352
 20
-79.597247957
 10
257.1394152195
 20
-82.5834234104
 10
256.4698018955
 20
-85.5401399202
 10
255.9644401084
 20
-88.4516227792
 10
255.6260272566
 20
-91.3023375047
 10
255.4563677521
 20
-94.077074913
 10
255.4563677521
 20
-96.7610300174
 10
255.6260272566
 20
-99.3398827314
 10
255.9644401084
 20
-101.799874295
 10
256.4698018955
 20
-104.1278788543
 10
257.1394152195
 20
-106.3114762764
 10
257.9697081352
 20
-108.3390159345
 10
258.9562525892
 20
-110.1996783076
 10
260.0937802254
 20
-111.8835381002
 10
261.3762245319
 20
-113.3816121554
 10
262.7967419141
 20
-114.685905845
 10
264.347756476
 20
-115.7894587018
 10
266.0209903132
 20
-116.6863862478
 10
267.8075161962
 20
-117.3718982499
 10
269.697803669
 20
-117.842342071
 10
271.6817651468
 20
-118.0952064767
 10
273.7488165023
 20
-118.1291398917
 10
275.887928432
 20
-117.9439663746
 10
278.0876883596
 20
-117.540668133
 10
280.3363597049
 20
-116.9213999779
 10
282.6219444455
 20
-116.0894653751
 10
284.9322486421
 20
-115.0493029528
 10
287.2549453292
 20
-113.8064623631
  0
LWPOLYLINE
  5
C6
330
1F
100
AcDbEntity
  8
0
  6
Continuous
 62
     7
370
    25
100
AcDbPolyline
 90
       34
 70
   128
 43
0.0
 10
492.3159059727
 20
-232.1856351711
 10
494.6386026598
 20
-230.7467472481
 10
496.9489068563
 20
-229.1194892227
 10
499.234491597
 20
-227.3125438541
 10
501.4831629423
 20
-225.3355513368
 10
503.6829228699
 20
-223.1990608269
 10
505.8220347996
 20
-220.9144682804
 10
507.889086155
 20
-218.49396817
 10
509.8730476328
 20
-215.9504705995
 10
511.7633351056
 20
-213.2975473176
 10
513.5498609887
 20
-210.5493564364
 10
515.2230948258
 20
-207.7205542231
 10
516.7741093877
 20
-204.8262380706
 10
518.19462677
 20
-201.8818499218
 10
519.4770710764
 20
-198.9030971876
 10
520.6145987127
 20
-195.9058759419
 10
521.6011431667
 20
-192.9061735873
 10
522.4314360823
 20
-189.9199981339
 10
523.1010494064
 20
-186.9632816242
 10
523.6064111935
 20
-184.0517987652
 10
523.9448240452
 20
-181.2010840397
 10
524.1144835497
 20
-178.4263466314
 10
524.1144835497
 20
-175.7423915269
 10
523.9448240452
 20
-173.163538813
 10
523.6064111935
 20
-170.7035472494
 10
523.1010494064
 20
-168.37554269
 10
522.4314360823
 20
-166.1919452679
 10
521.6011431667
 20
-164.1644056098
 10
520.6145987127
 20
-162.3037432367
 10
519.4770710764
 20
-160.6198834441
 10
518.19462677
 20
-159.121809389
 10
516.7741093877
 20
-157.8175156994
 10
515.2230948258
 20
-156.7139628425
 10
514.8140781003
 20
-156.4690979982
  0
LWPOLYLINE
  5
C7
330
1F
100
AcDbEntity
  8
0
  6
Continuous
 62
     7
370
    25
100
AcDbPolyline
 90
       12
 70
   128
 43
0.0
 10
469.8177338451
 20
-234.4134963542
 10
471.0819509567
 20
-235.0655590558
 10
472.8684768398
 20
-235.7510710579
 10
474.7587643126
 20
-236.221514879
 10
476.7427257904
 20
-236.4743792847
 10
478.8097771458
 20
-236.5083126997
 10
480.9488890755
 20
-236.3231391825
 10
483.1486490031
 20
-235.9198409409
 10
485.3973203484
 20
-235.3005727859
 10
487.6829050891
 20
-234.4686381831
 10
489.9932092856
 20
-233.4284757608
 10
492.3159059727
 20
-232.1856351711
  0
LWPOLYLINE
  5
C8
330
1F
100
AcDbEntity
  8
0
  6
Continuous
 62
     7
370
    25
100
AcDbPolyline
 90
       81
 70
   128
 43
0.0
 10
287.2549453292
 20
-109.3971403437
 10
289.4519120402
 20
-108.0291800236
 10
291.6353338079
 20
-106.4702996609
 10
293.7917489945
 20
-104.7301047301
 10
295.9078625744
 20
-102.8193303888
 10
297.9706281222
 20
-100.749751561
 10
299.9673278264
 20
-98.5341337044
 10
301.8856521731
 20
-96.1861320565
 10
303.7137717272
 20
-93.7202228196
 10
305.4404187923
 20
-91.1516134337
 10
307.0549447037
 20
-88.4961364976
 10
308.5473988538
 20
-85.770166125
 10
309.9085761075
 20
-82.9905069216
 10
311.1300892419
 20
-80.1742974129
 10
312.2044018737
 20
-77.3388997807
 10
313.1248916794
 20
-74.5017972057
 10
313.8858872736
 20
-71.6804782815
 10
314.4826919168
 20
-68.8923404373
 10
314.9116309308
 20
-66.1545705502
 10
315.1700543325
 20
-63.4840510278
 10
315.2563737124
 20
-60.8972438417
 10
315.1700543325
 20
-58.4100988902
 10
314.9116309308
 20
-56.0379486765
 10
314.4826919168
 20
-53.7954212334
 10
313.8858872736
 20
-51.6963393633
 10
313.1248916794
 20
-49.7536472501
 10
312.2044018737
 20
-47.9793195829
 10
311.1300892419
 20
-46.3842969133
 10
309.9085761075
 20
-44.9784164499
 10
308.5473988538
 20
-43.7703390515
 10
307.0549447037
 20
-42.7675195623
 10
305.4404187923
 20
-41.9761345651
 10
303.7137717272
 20
-41.4010694469
 10
301.8856521731
 20
-41.0458621196
 10
299.9673278264
 20
-40.912710618
 10
297.9706281222
 20
-41.0024331693
 10
295.9078625744
 20
-41.3144727488
 10
293.7917489945
 20
-41.8469111416
 10
291.6353338079
 20
-42.5964601896
 10
289.4519120402
 20
-43.5585049405
 10
287.2549453292
 20
-44.7271083927
 10
285.0579786181
 20
-46.0950687128
 10
282.8745568504
 20
-47.6539490755
 10
280.7181416638
 20
-49.3941440063
 10
278.6020280839
 20
-51.3049183476
 10
276.5392625361
 20
-53.3744971753
 10
274.5425628319
 20
-55.590115032
 10
272.6242384852
 20
-57.9381166799
 10
270.7961189311
 20
-60.4040259168
 10
269.069471866
 20
-62.9726353027
 10
267.4549459546
 20
-65.6281122388
 10
265.9624918045
 20
-68.3540826114
 10
264.6013145508
 20
-71.1337418148
 10
263.3798014164
 20
-73.9499513235
 10
262.3054887846
 20
-76.7853489557
 10
261.3849989789
 20
-79.6224515307
 10
260.6240033848
 20
-82.4437704549
 10
260.0271987415
 20
-85.2319082991
 10
259.5982597275
 20
-87.9696781862
 10
259.3398363258
 20
-90.6401977085
 10
259.2535169459
 20
-93.2270048947
 10
259.3398363258
 20
-95.7141498461
 10
259.5982597275
 20
-98.0863000599
 10
260.0271987415
 20
-100.328827503
 10
260.6240033848
 20
-102.427909373
 10
261.3849989789
 20
-104.3706014863
 10
262.3054887846
 20
-106.1449291534
 10
263.3798014164
 20
-107.7399518231
 10
264.6013145508
 20
-109.1458322864
 10
265.9624918045
 20
-110.3539096848
 10
267.4549459546
 20
-111.3567291741
 10
269.069471866
 20
-112.1481141712
 10
270.7961189311
 20
-112.7231792895
 10
272.6242384852
 20
-113.0783866167
 10
274.5425628319
 20
-113.2115381184
 10
276.5392625361
 20
-113.1218155671
 10
278.6020280839
 20
-112.8097759875
 10
280.7181416638
 20
-112.2773375947
 10
282.8745568504
 20
-111.5277885467
 10
285.0579786181
 20
-110.5657437959
 10
287.2549453292
 20
-109.3971403437
  0
LWPOLYLINE
  5
C9
330
1F
100
AcDbEntity
  8
0
  6
Continuous
 62
     7
370
    25
100
AcDbPolyline
 90
       68
 70
   128
 43
0.0
 10
409.3722831442
 20
-255.3423495063
 10
411.1203605647
 20
-254.2338371479
 10
412.6809464125
 20
-253.0356982734
 10
414.0403251811
 20
-251.7584616811
 10
415.1865508732
 20
-250.4133515
 10
416.109550392
 20
-249.0121894855
 10
416.8012131033
 20
-247.5672885724
 10
417.2554599827
 20
-246.0913460468
 10
417.4682989335
 20
-244.5973340576
 10
417.4378596893
 20
-243.0983806232
 10
417.164409619
 20
-241.6076586222
 10
416.6503524103
 20
-240.1382694611
 10
415.9002063369
 20
-238.703125602
 10
414.9205614537
 20
-237.3148391733
 10
413.7200279009
 20
-235.9856115299
 10
412.3091568787
 20
-234.7271222437
 10
410.7003461458
 20
-233.5504319707
 10
408.9077338298
 20
-232.4658816105
 10
406.9470751141
 20
-231.483001351
 10
404.8355990047
 20
-230.6104295021
 10
402.5918601577
 20
-229.8558345609
 10
400.2355786885
 20
-229.2258470663
 10
397.7874618706
 20
-228.7260038091
 10
395.2690217189
 20
-228.3606972695
 10
392.7023919142
 20
-228.1331383604
 10
390.110127606
 20
-228.0453260138
 10
387.515009166
 20
-228.0980327344
 10
384.9398446245
 20
-228.2907954756
 10
382.4072622294
 20
-228.6219183005
 10
379.9395201266
 20
-229.0884940519
 10
377.5583028697
 20
-229.6864199389
 10
375.2845393322
 20
-230.4104433474
 10
373.1382095901
 20
-231.2542003326
 10
371.1381763336
 20
-232.2102764456
 10
369.3020156217
 20
-233.270269462
 10
367.6458637705
 20
-234.4248640847
 10
366.1842754369
 20
-235.6639138709
 10
364.9300942143
 20
-236.9765296213
 10
363.8943439733
 20
-238.3511770835
 10
363.0861234939
 20
-239.7757742761
 10
362.5125397885
 20
-241.2378029726
 10
362.178628747
 20
-242.724413819
 10
362.0873281364
 20
-244.2225438058
 10
362.2394400639
 20
-245.7190261374
 10
362.6336263672
 20
-247.2007099851
 10
363.2664244191
 20
-248.6545745383
 10
364.1322721527
 20
-250.0678422951
 10
365.2235607449
 20
-251.4280946335
 10
366.5306991533
 20
-252.7233774989
 10
368.0422017033
 20
-253.9423067113
 10
369.7447847289
 20
-255.0741708954
 10
371.6234846172
 20
-256.109023958
 10
373.6617928098
 20
-257.0377706252
 10
375.8417964022
 20
-257.8522491296
 10
378.1443357004
 20
-258.5453023976
 10
380.5491789002
 20
-259.1108393509
 10
383.0351903447
 20
-259.5438894613
 10
385.58052282
 20
-259.8406483712
 10
388.1628088618
 20
-259.9985077366
 10
390.7593537092
 20
-260.0160799383
 10
393.3473387952
 20
-259.8932106274
 10
395.9040232607
 20
-259.6309794856
 10
398.40693625
 20
-259.2316911015
 10
400.8340830352
 20
-258.698854821
 10
403.1641346766
 20
-258.0371528137
 10
405.3766130743
 20
-257.2524001545
 10
407.4520753602
 20
-256.3514931209
 10
409.3722831442
 20
-255.3423495063
  0
LWPOLYLINE
  5
CA
330
1F
100
AcDbEntity
  8
0
  6
Continuous
 62
     7
370
    25
100
AcDbPolyline
 90
       72
 70
   128
 43
0.0
 10
412.0592896166
 20
-256.8935253251
 10
413.9406936532
 20
-255.7067784242
 10
415.6330512936
 20
-254.4286854999
 10
417.1231149271
 20
-253.0692482452
 10
418.3992260111
 20
-251.6391066585
 10
419.4513931082
 20
-250.1494529342
 10
420.2713857292
 20
-248.6119468756
 10
420.8527830652
 20
-247.0386208522
 10
421.1910365492
 20
-245.4417874185
 10
421.2834988323
 20
-243.833945032
 10
421.1294455155
 20
-242.2276773082
 10
420.7300830524
 20
-240.6355541765
 10
420.0885362368
 20
-239.0700379783
 10
419.2098264703
 20
-237.5433796805
 10
418.1008322505
 20
-236.0675276353
 10
416.7702302305
 20
-234.6540327272
 10
415.228435621
 20
-233.313957703
 10
413.487514933
 20
-232.057790303
 10
411.5610951398
 20
-230.8953604075
 10
409.464249214
 20
-229.8357678761
 10
407.2133898546
 20
-228.8873044702
 10
404.8261324274
 20
-228.0573929787
 10
402.3211634621
 20
-227.3525280297
 10
399.7180832189
 20
-226.7782277858
 10
397.0372677235
 20
-226.3389847117
 10
394.2996955696
 20
-226.0382385825
 10
391.52679382
 20
-225.8783422681
 10
388.7402641503
 20
-225.8605465267
 10
385.9619136034
 20
-225.984992021
 10
383.213487319
 20
-226.2507039961
 10
380.5164953362
 20
-226.6556025438
 10
377.8920440067
 20
-227.1965193302
 10
375.3606766262
 20
-227.8692211662
 10
372.9422015552
 20
-228.6684423221
 10
370.6555473383
 20
-229.5879286267
 10
368.5186096756
 20
-230.6204832311
 10
366.5481146098
 20
-231.7580258193
 10
364.7594837716
 20
-232.9916536735
 10
363.1667141951
 20
-234.3117110547
 10
361.7822725396
 20
-235.7078669952
 10
360.6169925207
 20
-237.1691942787
 10
359.6799956384
 20
-238.6842577822
 10
358.9786147858
 20
-240.2411981134
 10
358.5183382729
 20
-241.827830835
 10
358.3027689965
 20
-243.4317384656
 10
358.3335954649
 20
-245.0403678033
 10
358.6105740166
 20
-246.6411299101
 10
359.1315380402
 20
-248.2214966755
 10
359.8924118036
 20
-249.7690985194
 10
360.8872367963
 20
-251.2718247574
 10
362.1082309976
 20
-252.7179125602
 10
363.5458356342
 20
-254.0960469385
 10
365.1888004608
 20
-255.3954403883
 10
367.0242674372
 20
-256.6059237754
 10
369.0378732549
 20
-257.7180222503
 10
371.2138547867
 20
-258.7230343713
 10
373.5351843354
 20
-259.6130934539
 10
375.9836946337
 20
-260.3812336497
 10
378.5402223656
 20
-261.0214423856
 10
381.1847586441
 20
-261.5287107362
 10
383.8966060738
 20
-261.8990678297
 10
386.654543058
 20
-262.1296148722
 10
389.4369818492
 20
-262.218547959
 10
392.2221483318
 20
-262.1651706192
 10
394.9882446824
 20
-261.9699010393
 10
397.713620592
 20
-261.6342675014
 10
400.3769477795
 20
-261.1608958373
 10
402.9573833112
 20
-260.553492701
 10
405.4347296271
 20
-259.816809453
 10
407.7895991769
 20
-258.9566140272
 10
410.0035609461
 20
-257.9796367569
 10
412.0592896166
 20
-256.8935253251
  0
ENDSEC
  0
SECTION
  2
OBJECTS
  0
DICTIONARY
  5
C
330
0
100
AcDbDictionary
281
     1
  3
ACAD_GROUP
350
D
  3
ACAD_LAYOUT
350
1A
  3
ACAD_MLINESTYLE
350
17
  3
ACAD_PLOTSETTINGS
350
19
  3
ACAD_PLOTSTYLENAME
350
E
  3
ACAD_SCALELIST
350
47
  0
DICTIONARY
  5
D
102
{ACAD_REACTORS
330
C
102
}
330
C
100
AcDbDictionary
281
     1
  0
DICTIONARY
  5
1A
102
{ACAD_REACTORS
330
C
102
}
330
C
100
AcDbDictionary
281
     1
  3
Layout1
350
1E
  3
Layout2
350
26
  3
Model
350
22
  0
DICTIONARY
  5
17
102
{ACAD_REACTORS
330
C
102
}
330
C
100
AcDbDictionary
281
     1
  3
Standard
350
18
  0
DICTIONARY
  5
19
102
{ACAD_REACTORS
330
C
102
}
330
C
100
AcDbDictionary
281
     1
  0
ACDBDICTIONARYWDFLT
  5
E
102
{ACAD_REACTORS
330
C
102
}
330
C
100
AcDbDictionary
281
     1
  3
Normal
350
F
100
AcDbDictionaryWithDefault
340
F
  0
DICTIONARY
  5
47
102
{ACAD_REACTORS
330
C
102
}
330
C
100
AcDbDictionary
281
     1
  3
A0
350
48
  3
A1
350
49
  3
A2
350
4A
  3
A3
350
4B
  3
A4
350
4C
  3
A5
350
4D
  3
A6
350
4E
  3
A7
350
4F
  3
A8
350
50
  3
A9
350
51
  3
B0
350
52
  3
B1
350
53
  3
B2
350
54
  3
B3
350
55
  3
B4
350
56
  3
B5
350
57
  3
B6
350
58
  3
B7
350
59
  3
B8
350
5A
  3
B9
350
5B
  3
C0
350
5C
  3
C1
350
5D
  3
C2
350
5E
  3
C3
350
5F
  3
C4
350
60
  3
C5
350
61
  3
C6
350
62
  3
C7
350
63
  3
C8
350
64
  3
C9
350
65
  3
D0
350
66
  3
D1
350
67
  3
D2
350
68
  0
LAYOUT
  5
1E
102
{ACAD_REACTORS
330
1A
102
}
330
1A
100
AcDbPlotSettings
  1

  2
none_device
  4

  6

 40
0.0
 41
0.0
 42
0.0
 43
0.0
 44
0.0
 45
0.0
 46
0.0
 47
0.0
 48
0.0
 49
0.0
140
0.0
141
0.0
142
1.0
143
1.0
 70
   688
 72
     1
 73
     0
 74
     5
  7

 75
    16
147
1.0
148
0.0
149
0.0
100
AcDbLayout
  1
Layout1
 70
     1
 71
     1
 10
0.0
 20
0.0
 11
420.0
 21
297.0
 12
0.0
 22
0.0
 32
0.0
 14
1.0000000000E+20
 24
1.0000000000E+20
 34
1.0000000000E+20
 15
-1.0000000000E+20
 25
-1.0000000000E+20
 35
-1.0000000000E+20
146
0.0
 13
0.0
 23
0.0
 33
0.0
 16
1.0
 26
0.0
 36
0.0
 17
0.0
 27
1.0
 37
0.0
 76
     0
330
1B
  0
LAYOUT
  5
26
102
{ACAD_REACTORS
330
1A
102
}
330
1A
100
AcDbPlotSettings
  1

  2
none_device
  4

  6

 40
0.0
 41
0.0
 42
0.0
 43
0.0
 44
0.0
 45
0.0
 46
0.0
 47
0.0
 48
0.0
 49
0.0
140
0.0
141
0.0
142
1.0
143
1.0
 70
   688
 72
     1
 73
     0
 74
     5
  7

 75
    16
147
1.0
148
0.0
149
0.0
100
AcDbLayout
  1
Layout2
 70
     1
 71
     2
 10
0.0
 20
0.0
 11
0.0
 21
0.0
 12
0.0
 22
0.0
 32
0.0
 14
0.0
 24
0.0
 34
0.0
 15
0.0
 25
0.0
 35
0.0
146
0.0
 13
0.0
 23
0.0
 33
0.0
 16
1.0
 26
0.0
 36
0.0
 17
0.0
 27
1.0
 37
0.0
 76
     0
330
23
  0
LAYOUT
  5
22
102
{ACAD_REACTORS
330
1A
102
}
330
1A
100
AcDbPlotSettings
  1

  2
none_device
  4
Letter_(8.50_x_11.00_Inches)
  6

 40
6.35
 41
6.35
 42
6.35000508
 43
6.35000508
 44
215.9
 45
279.4
 46
0.0
 47
0.0
 48
0.0
 49
0.0
140
0.0
141
0.0
142
1.0
143
1.0
 70
  1712
 72
     1
 73
     0
 74
     0
  7

 75
     0
147
1.0
148
0.0
149
0.0
100
AcDbLayout
  1
Model
 70
     1
 71
     0
 10
0.0
 20
0.0
 11
279.4
 21
215.9
 12
0.0
 22
0.0
 32
0.0
 14
0.0
 24
0.0
 34
0.0
 15
279.4
 25
215.9
 35
0.0
146
0.0
 13
0.0
 23
0.0
 33
0.0
 16
1.0
 26
0.0
 36
0.0
 17
0.0
 27
1.0
 37
0.0
 76
     0
330
1F
331
29
  0
MLINESTYLE
  5
18
102
{ACAD_REACTORS
330
17
102
}
330
17
100
AcDbMlineStyle
  2
Standard
 70
     0
  3

 62
   256
 51
90.0
 52
90.0
 71
     2
 49
0.5
 62
   256
  6
BYLAYER
 49
-0.5
 62
   256
  6
BYLAYER
  0
ACDBPLACEHOLDER
  5
F
102
{ACAD_REACTORS
330
E
102
}
330
E
  0
SCALE
  5
48
102
{ACAD_REACTORS
330
47
102
}
330
47
100
AcDbScale
 70
     0
300
1:1
140
1.0
141
1.0
290
     1
  0
SCALE
  5
49
102
{ACAD_REACTORS
330
47
102
}
330
47
100
AcDbScale
 70
     0
300
1:2
140
1.0
141
2.0
290
     0
  0
SCALE
  5
4A
102
{ACAD_REACTORS
330
47
102
}
330
47
100
AcDbScale
 70
     0
300
1:4
140
1.0
141
4.0
290
     0
  0
SCALE
  5
4B
102
{ACAD_REACTORS
330
47
102
}
330
47
100
AcDbScale
 70
     0
300
1:5
140
1.0
141
5.0
290
     0
  0
SCALE
  5
4C
102
{ACAD_REACTORS
330
47
102
}
330
47
100
AcDbScale
 70
     0
300
1:8
140
1.0
141
8.0
290
     0
  0
SCALE
  5
4D
102
{ACAD_REACTORS
330
47
102
}
330
47
100
AcDbScale
 70
     0
300
1:10
140
1.0
141
10.0
290
     0
  0
SCALE
  5
4E
102
{ACAD_REACTORS
330
47
102
}
330
47
100
AcDbScale
 70
     0
300
1:16
140
1.0
141
16.0
290
     0
  0
SCALE
  5
4F
102
{ACAD_REACTORS
330
47
102
}
330
47
100
AcDbScale
 70
     0
300
1:20
140
1.0
141
20.0
290
     0
  0
SCALE
  5
50
102
{ACAD_REACTORS
330
47
102
}
330
47
100
AcDbScale
 70
     0
300
1:30
140
1.0
141
30.0
290
     0
  0
SCALE
  5
51
102
{ACAD_REACTORS
330
47
102
}
330
47
100
AcDbScale
 70
     0
300
1:40
140
1.0
141
40.0
290
     0
  0
SCALE
  5
52
102
{ACAD_REACTORS
330
47
102
}
330
47
100
AcDbScale
 70
     0
300
1:50
140
1.0
141
50.0
290
     0
  0
SCALE
  5
53
102
{ACAD_REACTORS
330
47
102
}
330
47
100
AcDbScale
 70
     0
300
1:100
140
1.0
141
100.0
290
     0
  0
SCALE
  5
54
102
{ACAD_REACTORS
330
47
102
}
330
47
100
AcDbScale
 70
     0
300
2:1
140
2.0
141
1.0
290
     0
  0
SCALE
  5
55
102
{ACAD_REACTORS
330
47
102
}
330
47
100
AcDbScale
 70
     0
300
4:1
140
4.0
141
1.0
290
     0
  0
SCALE
  5
56
102
{ACAD_REACTORS
330
47
102
}
330
47
100
AcDbScale
 70
     0
300
8:1
140
8.0
141
1.0
290
     0
  0
SCALE
  5
57
102
{ACAD_REACTORS
330
47
102
}
330
47
100
AcDbScale
 70
     0
300
10:1
140
10.0
141
1.0
290
     0
  0
SCALE
  5
58
102
{ACAD_REACTORS
330
47
102
}
330
47
100
AcDbScale
 70
     0
300
100:1
140
100.0
141
1.0
290
     0
  0
SCALE
  5
59
102
{ACAD_REACTORS
330
47
102
}
330
47
100
AcDbScale
 70
     0
300
1/128" = 1'-0"
140
0.0078125
141
12.0
290
     0
  0
SCALE
  5
5A
102
{ACAD_REACTORS
330
47
102
}
330
47
100
AcDbScale
 70
     0
300
1/64" = 1'-0"
140
0.015625
141
12.0
290
     0
  0
SCALE
  5
5B
102
{ACAD_REACTORS
330
47
102
}
330
47
100
AcDbScale
 70
     0
300
1/32" = 1'-0"
140
0.03125
141
12.0
290
     0
  0
SCALE
  5
5C
102
{ACAD_REACTORS
330
47
102
}
330
47
100
AcDbScale
 70
     0
300
1/16" = 1'-0"
140
0.0625
141
12.0
290
     0
  0
SCALE
  5
5D
102
{ACAD_REACTORS
330
47
102
}
330
47
100
AcDbScale
 70
     0
300
3/32" = 1'-0"
140
0.09375
141
12.0
290
     0
  0
SCALE
  5
5E
102
{ACAD_REACTORS
330
47
102
}
330
47
100
AcDbScale
 70
     0
300
1/8" = 1'-0"
140
0.125
141
12.0
290
     0
  0
SCALE
  5
5F
102
{ACAD_REACTORS
330
47
102
}
330
47
100
AcDbScale
 70
     0
300
3/16" = 1'-0"
140
0.1875
141
12.0
290
     0
  0
SCALE
  5
60
102
{ACAD_REACTORS
330
47
102
}
330
47
100
AcDbScale
 70
     0
300
1/4" = 1'-0"
140
0.25
141
12.0
290
     0
  0
SCALE
  5
61
102
{ACAD_REACTORS
330
47
102
}
330
47
100
AcDbScale
 70
     0
300
3/8" = 1'-0"
140
0.375
141
12.0
290
     0
  0
SCALE
  5
62
102
{ACAD_REACTORS
330
47
102
}
330
47
100
AcDbScale
 70
     0
300
1/2" = 1'-0"
140
0.5
141
12.0
290
     0
  0
SCALE
  5
63
102
{ACAD_REACTORS
330
47
102
}
330
47
100
AcDbScale
 70
     0
300
3/4" = 1'-0"
140
0.75
141
12.0
290
     0
  0
SCALE
  5
64
102
{ACAD_REACTORS
330
47
102
}
330
47
100
AcDbScale
 70
     0
300
1" = 1'-0"
140
1.0
141
12.0
290
     0
  0
SCALE
  5
65
102
{ACAD_REACTORS
330
47
102
}
330
47
100
AcDbScale
 70
     0
300
1-1/2" = 1'-0"
140
1.5
141
12.0
290
     0
  0
SCALE
  5
66
102
{ACAD_REACTORS
330
47
102
}
330
47
100
AcDbScale
 70
     0
300
3" = 1'-0"
140
3.0
141
12.0
290
     0
  0
SCALE
  5
67
102
{ACAD_REACTORS
330
47
102
}
330
47
100
AcDbScale
 70
     0
300
6" = 1'-0"
140
6.0
141
12.0
290
     0
  0
SCALE
  5
68
102
{ACAD_REACTORS
330
47
102
}
330
47
100
AcDbScale
 70
     0
300
1'-0" = 1'-0"
140
12.0
141
12.0
290
     0
  0
ENDSEC
  0
EOF
